  0
SECTION
  2
HEADER
  9
$ACADVER
  1
AC1015
  9
$ACADMAINTVER
 70
     6
  9
$DWGCODEPAGE
  3
ANSI_1254
  9
$INSBASE
 10
0.0
 20
0.0
 30
0.0
  9
$EXTMIN
 10
0.0
 20
0.0
 30
0.0
  9
$EXTMAX
 10
279.4
 20
215.9
 30
0.0
  9
$LIMMIN
 10
0.0
 20
0.0
  9
$LIMMAX
 10
279.4
 20
215.9
  9
$ORTHOMODE
 70
     0
  9
$REGENMODE
 70
     1
  9
$FILLMODE
 70
     1
  9
$QTEXTMODE
 70
     0
  9
$MIRRTEXT
 70
     1
  9
$LTSCALE
 40
1.0
  9
$ATTMODE
 70
     1
  9
$TEXTSIZE
 40
3.5
  9
$TRACEWID
 40
1.0
  9
$TEXTSTYLE
  7
Standard
  9
$CLAYER
  8
0
  9
$CELTYPE
  6
ByLayer
  9
$CECOLOR
 62
   256
  9
$CELTSCALE
 40
1.0
  9
$DISPSILH
 70
     0
  9
$DIMSCALE
 40
1.0
  9
$DIMASZ
 40
3.5
  9
$DIMEXO
 40
1.0
  9
$DIMDLI
 40
3.75
  9
$DIMRND
 40
0.0
  9
$DIMDLE
 40
0.0
  9
$DIMEXE
 40
1.0
  9
$DIMTP
 40
0.0
  9
$DIMTM
 40
0.0
  9
$DIMTXT
 40
3.5
  9
$DIMCEN
 40
2.5
  9
$DIMTSZ
 40
0.0
  9
$DIMTOL
 70
     0
  9
$DIMLIM
 70
     0
  9
$DIMTIH
 70
     1
  9
$DIMTOH
 70
     1
  9
$DIMSE1
 70
     0
  9
$DIMSE2
 70
     0
  9
$DIMTAD
 70
     1
  9
$DIMZIN
 70
     0
  9
$DIMBLK
  1

  9
$DIMASO
 70
     1
  9
$DIMSHO
 70
     1
  9
$DIMPOST
  1

  9
$DIMAPOST
  1

  9
$DIMALT
 70
     0
  9
$DIMALTD
 70
     3
  9
$DIMALTF
 40
0.0393700787
  9
$DIMLFAC
 40
1.0
  9
$DIMTOFL
 70
     1
  9
$DIMTVP
 40
0.0
  9
$DIMTIX
 70
     0
  9
$DIMSOXD
 70
     0
  9
$DIMSAH
 70
     0
  9
$DIMBLK1
  1

  9
$DIMBLK2
  1

  9
$DIMSTYLE
  2
ISO-25
  9
$DIMCLRD
 70
     0
  9
$DIMCLRE
 70
     0
  9
$DIMCLRT
 70
     0
  9
$DIMTFAC
 40
1.0
  9
$DIMGAP
 40
1.524
  9
$DIMJUST
 70
     0
  9
$DIMSD1
 70
     0
  9
$DIMSD2
 70
     0
  9
$DIMTOLJ
 70
     0
  9
$DIMTZIN
 70
     0
  9
$DIMALTZ
 70
     0
  9
$DIMALTTZ
 70
     0
  9
$DIMUPT
 70
     0
  9
$DIMDEC
 70
     2
  9
$DIMTDEC
 70
     2
  9
$DIMALTU
 70
     2
  9
$DIMALTTD
 70
     3
  9
$DIMTXSTY
  7
Standard
  9
$DIMAUNIT
 70
     0
  9
$DIMADEC
 70
     2
  9
$DIMALTRND
 40
0.0
  9
$DIMAZIN
 70
     0
  9
$DIMDSEP
 70
    44
  9
$DIMATFIT
 70
     3
  9
$DIMFRAC
 70
     0
  9
$DIMLDRBLK
  1

  9
$DIMLUNIT
 70
     2
  9
$DIMLWD
 70
    -2
  9
$DIMLWE
 70
    -2
  9
$DIMTMOVE
 70
     0
  9
$LUNITS
 70
     2
  9
$LUPREC
 70
     2
  9
$SKETCHINC
 40
1.0
  9
$FILLETRAD
 40
10.0
  9
$AUNITS
 70
     0
  9
$AUPREC
 70
     2
  9
$MENU
  1
.
  9
$ELEVATION
 40
0.0
  9
$PELEVATION
 40
0.0
  9
$THICKNESS
 40
0.0
  9
$LIMCHECK
 70
     0
  9
$CHAMFERA
 40
0.0
  9
$CHAMFERB
 40
0.0
  9
$CHAMFERC
 40
0.0
  9
$CHAMFERD
 40
0.0
  9
$SKPOLY
 70
     0
  9
$TDCREATE
 40
2459741.60611853
  9
$TDUCREATE
 40
2459741.48111853
  9
$TDUPDATE
 40
2459741.606118704
  9
$TDUUPDATE
 40
2459741.481118704
  9
$TDINDWG
 40
0.0000000116
  9
$TDUSRTIMER
 40
0.0000000116
  9
$USRTIMER
 70
     1
  9
$ANGBASE
 50
0.0
  9
$ANGDIR
 70
     0
  9
$PDMODE
 70
     0
  9
$PDSIZE
 40
-1.0
  9
$PLINEWID
 40
0.0
  9
$SPLFRAME
 70
     0
  9
$SPLINETYPE
 70
     6
  9
$SPLINESEGS
 70
     8
  9
$HANDSEED
  5
102
  9
$SURFTAB1
 70
     6
  9
$SURFTAB2
 70
     6
  9
$SURFTYPE
 70
     6
  9
$SURFU
 70
     6
  9
$SURFV
 70
     6
  9
$UCSBASE
  2

  9
$UCSNAME
  2

  9
$UCSORG
 10
0.0
 20
0.0
 30
0.0
  9
$UCSXDIR
 10
1.0
 20
0.0
 30
0.0
  9
$UCSYDIR
 10
0.0
 20
1.0
 30
0.0
  9
$UCSORTHOREF
  2

  9
$UCSORTHOVIEW
 70
     0
  9
$UCSORGTOP
 10
0.0
 20
0.0
 30
0.0
  9
$UCSORGBOTTOM
 10
0.0
 20
0.0
 30
0.0
  9
$UCSORGLEFT
 10
0.0
 20
0.0
 30
0.0
  9
$UCSORGRIGHT
 10
0.0
 20
0.0
 30
0.0
  9
$UCSORGFRONT
 10
0.0
 20
0.0
 30
0.0
  9
$UCSORGBACK
 10
0.0
 20
0.0
 30
0.0
  9
$PUCSBASE
  2

  9
$PUCSNAME
  2

  9
$PUCSORG
 10
0.0
 20
0.0
 30
0.0
  9
$PUCSXDIR
 10
1.0
 20
0.0
 30
0.0
  9
$PUCSYDIR
 10
0.0
 20
1.0
 30
0.0
  9
$PUCSORTHOREF
  2

  9
$PUCSORTHOVIEW
 70
     0
  9
$PUCSORGTOP
 10
0.0
 20
0.0
 30
0.0
  9
$PUCSORGBOTTOM
 10
0.0
 20
0.0
 30
0.0
  9
$PUCSORGLEFT
 10
0.0
 20
0.0
 30
0.0
  9
$PUCSORGRIGHT
 10
0.0
 20
0.0
 30
0.0
  9
$PUCSORGFRONT
 10
0.0
 20
0.0
 30
0.0
  9
$PUCSORGBACK
 10
0.0
 20
0.0
 30
0.0
  9
$USERI1
 70
     0
  9
$USERI2
 70
     0
  9
$USERI3
 70
     0
  9
$USERI4
 70
     0
  9
$USERI5
 70
     0
  9
$USERR1
 40
0.0
  9
$USERR2
 40
0.0
  9
$USERR3
 40
0.0
  9
$USERR4
 40
0.0
  9
$USERR5
 40
0.0
  9
$WORLDVIEW
 70
     1
  9
$SHADEDGE
 70
     3
  9
$SHADEDIF
 70
    70
  9
$TILEMODE
 70
     1
  9
$MAXACTVP
 70
    64
  9
$PINSBASE
 10
0.0
 20
0.0
 30
0.0
  9
$PLIMCHECK
 70
     0
  9
$PEXTMIN
 10
1.0000000000E+20
 20
1.0000000000E+20
 30
1.0000000000E+20
  9
$PEXTMAX
 10
-1.0000000000E+20
 20
-1.0000000000E+20
 30
-1.0000000000E+20
  9
$PLIMMIN
 10
0.0
 20
0.0
  9
$PLIMMAX
 10
420.0
 20
297.0
  9
$UNITMODE
 70
     0
  9
$VISRETAIN
 70
     1
  9
$PLINEGEN
 70
     0
  9
$PSLTSCALE
 70
     1
  9
$TREEDEPTH
 70
  3020
  9
$CMLSTYLE
  2
Standard
  9
$CMLJUST
 70
     0
  9
$CMLSCALE
 40
20.0
  9
$PROXYGRAPHICS
 70
     1
  9
$MEASUREMENT
 70
     1
  9
$CELWEIGHT
370
    -1
  9
$ENDCAPS
280
     0
  9
$JOINSTYLE
280
     0
  9
$LWDISPLAY
290
     1
  9
$INSUNITS
 70
     4
  9
$HYPERLINKBASE
  1

  9
$STYLESHEET
  1

  9
$XEDIT
290
     1
  9
$CEPSNTYPE
380
     0
  9
$PSTYLEMODE
290
     1
  9
$FINGERPRINTGUID
  2
{cd9284b1-ebb4-4753-9e0a-e3ffaa678ada}
  9
$VERSIONGUID
  2
{FAEB1C32-E019-11D5-929B-00C0DF256EC4}
  9
$EXTNAMES
290
     1
  9
$PSVPSCALE
 40
0.0
  9
$OLESTARTUP
290
     0
  0
ENDSEC
  0
SECTION
  2
CLASSES
  0
CLASS
  1
ACDBDICTIONARYWDFLT
  2
AcDbDictionaryWithDefault
  3
ObjectDBX Classes
 90
        0
280
     0
281
     0
  0
CLASS
  1
VISUALSTYLE
  2
AcDbVisualStyle
  3
ObjectDBX Classes
 90
     4095
280
     0
281
     0
  0
CLASS
  1
MATERIAL
  2
AcDbMaterial
  3
ObjectDBX Classes
 90
     1153
280
     0
281
     0
  0
CLASS
  1
SCALE
  2
AcDbScale
  3
ObjectDBX Classes
 90
     1153
280
     0
281
     0
  0
CLASS
  1
TABLESTYLE
  2
AcDbTableStyle
  3
ObjectDBX Classes
 90
     4095
280
     0
281
     0
  0
CLASS
  1
MLEADERSTYLE
  2
AcDbMLeaderStyle
  3
ACDB_MLEADERSTYLE_CLASS
 90
     4095
280
     0
281
     0
  0
CLASS
  1
SUN
  2
AcDbSun
  3
SCENEOE
 90
     1153
280
     0
281
     0
  0
CLASS
  1
ACDBPLACEHOLDER
  2
AcDbPlaceHolder
  3
ObjectDBX Classes
 90
        0
280
     0
281
     0
  0
CLASS
  1
LAYOUT
  2
AcDbLayout
  3
ObjectDBX Classes
 90
        0
280
     0
281
     0
  0
ENDSEC
  0
SECTION
  2
TABLES
  0
TABLE
  2
VPORT
  5
8
330
0
100
AcDbSymbolTable
 70
     1
  0
VPORT
  5
29
330
8
100
AcDbSymbolTableRecord
100
AcDbViewportTableRecord
  2
*Active
 70
     0
 10
0.0
 20
0.0
 11
1.0
 21
1.0
 12
139.7
 22
107.95
 13
0.0
 23
0.0
 14
10.0
 24
10.0
 15
10.0
 25
10.0
 16
0.0
 26
0.0
 36
1.0
 17
0.0
 27
0.0
 37
0.0
 40
215.9
 41
1.2941176471
 42
50.0
 43
0.0
 44
0.0
 50
0.0
 51
0.0
 71
     0
 72
  2000
 73
     1
 74
     3
 75
     0
 76
     0
 77
     0
 78
     0
281
     0
 65
     1
110
0.0
120
0.0
130
0.0
111
1.0
121
0.0
131
0.0
112
0.0
122
1.0
132
0.0
 79
     0
146
0.0
  0
ENDTAB
  0
TABLE
  2
LTYPE
  5
5
330
0
100
AcDbSymbolTable
 70
     6
  0
LTYPE
  5
14
330
5
100
AcDbSymbolTableRecord
100
AcDbLinetypeTableRecord
  2
ByBlock
 70
     0
  3

 72
    65
 73
     0
 40
0.0
  0
LTYPE
  5
15
330
5
100
AcDbSymbolTableRecord
100
AcDbLinetypeTableRecord
  2
ByLayer
 70
     0
  3

 72
    65
 73
     0
 40
0.0
  0
LTYPE
  5
16
330
5
100
AcDbSymbolTableRecord
100
AcDbLinetypeTableRecord
  2
Continuous
 70
     0
  3
Solid line
 72
    65
 73
     0
 40
0.0
  0
LTYPE
  5
6E
330
5
100
AcDbSymbolTableRecord
100
AcDbLinetypeTableRecord
  2
HIDDEN
 70
     0
  3
Hidden __ __ __ __ __ __ __ __ __ __ __ __ __ __
 72
    65
 73
     2
 40
1.905
 49
1.27
 74
     0
 49
-0.635
 74
     0
  0
LTYPE
  5
6F
330
5
100
AcDbSymbolTableRecord
100
AcDbLinetypeTableRecord
  2
PHANTOM
 70
     0
  3
Phantom ______  __  __  ______  __  __  ______
 72
    65
 73
     6
 40
12.7
 49
6.35
 74
     0
 49
-1.27
 74
     0
 49
1.27
 74
     0
 49
-1.27
 74
     0
 49
1.27
 74
     0
 49
-1.27
 74
     0
  0
LTYPE
  5
70
330
5
100
AcDbSymbolTableRecord
100
AcDbLinetypeTableRecord
  2
CENTER
 70
     0
  3
Center ____ _ ____ _ ____ _ ____ _ ____ _ ____
 72
    65
 73
     4
 40
10.16
 49
6.35
 74
     0
 49
-1.27
 74
     0
 49
1.27
 74
     0
 49
-1.27
 74
     0
  0
LTYPE
  5
71
330
5
100
AcDbSymbolTableRecord
100
AcDbLinetypeTableRecord
  2
CENTERX2
 70
     0
  3
Center (2x) ________  __  ________  __  _____
 72
    65
 73
     4
 40
20.32
 49
12.7
 74
     0
 49
-2.54
 74
     0
 49
2.54
 74
     0
 49
-2.54
 74
     0
  0
LTYPE
  5
72
330
5
100
AcDbSymbolTableRecord
100
AcDbLinetypeTableRecord
  2
DOT2
 70
     0
  3
Dot (.5x) ........................................
 72
    65
 73
     2
 40
0.635
 49
0.0
 74
     0
 49
-0.635
 74
     0
  0
ENDTAB
  0
TABLE
  2
LAYER
  5
2
330
0
100
AcDbSymbolTable
 70
    17
  0
LAYER
  5
10
330
2
100
AcDbSymbolTableRecord
100
AcDbLayerTableRecord
  2
0
 70
     0
 62
     7
  6
Continuous
370
    -3
390
F
  0
LAYER
  5
73
330
2
100
AcDbSymbolTableRecord
100
AcDbLayerTableRecord
  2
FORMAT
 70
     0
 62
     7
  6
Continuous
370
    -3
390
F
  0
LAYER
  5
74
330
2
100
AcDbSymbolTableRecord
100
AcDbLayerTableRecord
  2
YARDIMCI_GEOMETRI
 70
     0
 62
    -6
  6
Continuous
290
     0
370
    -3
390
F
  0
LAYER
  5
75
330
2
100
AcDbSymbolTableRecord
100
AcDbLayerTableRecord
  2
SAYFA_CERCEVESI
 70
     0
 62
     7
  6
Continuous
370
    25
390
F
  0
LAYER
  5
76
330
2
100
AcDbSymbolTableRecord
100
AcDbLayerTableRecord
  2
ANTET
 70
     0
 62
     7
  6
Continuous
370
    -3
390
F
  0
LAYER
  5
77
330
2
100
AcDbSymbolTableRecord
100
AcDbLayerTableRecord
  2
OLCU
 70
     0
 62
   150
  6
Continuous
370
    -3
390
F
  0
LAYER
  5
78
330
2
100
AcDbSymbolTableRecord
100
AcDbLayerTableRecord
  2
METIN
 70
     0
 62
    96
  6
Continuous
370
    -3
390
F
  0
LAYER
  5
79
330
2
100
AcDbSymbolTableRecord
100
AcDbLayerTableRecord
  2
BALON
 70
     0
 62
     5
  6
Continuous
370
    -3
390
F
  0
LAYER
  5
7A
330
2
100
AcDbSymbolTableRecord
100
AcDbLayerTableRecord
  2
VURGU
 70
     0
 62
     7
  6
Continuous
370
    -3
390
F
  0
LAYER
  5
7B
330
2
100
AcDbSymbolTableRecord
100
AcDbLayerTableRecord
  2
SILIK
 70
     0
 62
     7
  6
Continuous
370
    -3
390
F
  0
LAYER
  5
7C
330
2
100
AcDbSymbolTableRecord
100
AcDbLayerTableRecord
  2
MODEL
 70
     0
 62
     7
  6
Continuous
370
    -3
390
F
  0
LAYER
  5
7D
330
2
100
AcDbSymbolTableRecord
100
AcDbLayerTableRecord
  2
DETAYLANDıRMA
 70
     0
 62
   190
  6
Continuous
370
    -3
390
F
  0
LAYER
  5
7E
330
2
100
AcDbSymbolTableRecord
100
AcDbLayerTableRecord
  2
TOLERANS
 70
     0
 62
   230
  6
Continuous
370
    -3
390
F
  0
LAYER
  5
7F
330
2
100
AcDbSymbolTableRecord
100
AcDbLayerTableRecord
  2
MERKEZ_CIZGILERI
 70
     0
 62
    30
  6
Continuous
370
    -3
390
F
  0
LAYER
  5
80
330
2
100
AcDbSymbolTableRecord
100
AcDbLayerTableRecord
  2
KESIT-DETAY_CIZGILERI
 70
     0
 62
     7
  6
Continuous
370
    -3
390
F
  0
LAYER
  5
81
330
2
100
AcDbSymbolTableRecord
100
AcDbLayerTableRecord
  2
\U+041E\U+0421\U+0415\U+0412\U+042B\U+0415
 70
     0
 62
     7
  6
Continuous
370
    -3
390
F
  0
LAYER
  5
82
330
2
100
AcDbSymbolTableRecord
100
AcDbLayerTableRecord
  2
\U+0412\U+041E\U+0414\U+042F\U+041D\U+042B\U+0415_\U+0417\U+041D\U+0410\U+041A\U+0418
 70
     0
 62
    11
  6
Continuous
370
    -3
390
F
  0
ENDTAB
  0
TABLE
  2
STYLE
  5
3
330
0
100
AcDbSymbolTable
 70
     1
  0
STYLE
  5
11
330
3
100
AcDbSymbolTableRecord
100
AcDbTextStyleTableRecord
  2
Standard
 70
     0
 40
0.0
 41
1.0
 50
0.0
 71
     0
 42
3.5
  3
txt
  4

  0
ENDTAB
  0
TABLE
  2
VIEW
  5
6
330
0
100
AcDbSymbolTable
 70
     0
  0
ENDTAB
  0
TABLE
  2
UCS
  5
7
330
0
100
AcDbSymbolTable
 70
     0
  0
ENDTAB
  0
TABLE
  2
APPID
  5
9
330
0
100
AcDbSymbolTable
 70
     1
  0
APPID
  5
12
330
9
100
AcDbSymbolTableRecord
100
AcDbRegAppTableRecord
  2
ACAD
 70
     0
  0
ENDTAB
  0
TABLE
  2
DIMSTYLE
  5
A
330
0
100
AcDbSymbolTable
 70
     1
100
AcDbDimStyleTable
  0
DIMSTYLE
105
27
330
A
100
AcDbSymbolTableRecord
100
AcDbDimStyleTableRecord
  2
ISO-25
 70
     0
 41
2.5
 42
0.625
 43
3.75
 44
1.25
 73
     0
 74
     0
 77
     1
 78
     8
140
2.5
141
2.5
143
0.0393700787
147
0.625
171
     3
172
     1
178
     0
271
     2
272
     2
274
     3
278
    44
283
     0
284
     8
340
11
  0
ENDTAB
  0
TABLE
  2
BLOCK_RECORD
  5
1
330
0
100
AcDbSymbolTable
 70
     5
  0
BLOCK_RECORD
  5
1F
330
1
100
AcDbSymbolTableRecord
100
AcDbBlockTableRecord
  2
*Model_Space
340
22
  0
BLOCK_RECORD
  5
1B
330
1
100
AcDbSymbolTableRecord
100
AcDbBlockTableRecord
  2
*Paper_Space
340
1E
  0
BLOCK_RECORD
  5
23
330
1
100
AcDbSymbolTableRecord
100
AcDbBlockTableRecord
  2
*Paper_Space0
340
26
  0
BLOCK_RECORD
  5
8B
330
1
100
AcDbSymbolTableRecord
100
AcDbBlockTableRecord
  2
SW_CENTERMARKSYMBOL_0
340
0
102
{BLKREFS
331
96
102
}
  0
BLOCK_RECORD
  5
A9
330
1
100
AcDbSymbolTableRecord
100
AcDbBlockTableRecord
  2
SW_CENTERMARKSYMBOL_1
340
0
102
{BLKREFS
331
B4
102
}
  0
BLOCK_RECORD
  5
D9
330
1
100
AcDbSymbolTableRecord
100
AcDbBlockTableRecord
  2
SW_CENTERMARKSYMBOL_2
340
0
102
{BLKREFS
331
E4
102
}
  0
BLOCK_RECORD
  5
E5
330
1
100
AcDbSymbolTableRecord
100
AcDbBlockTableRecord
  2
SW_CENTERMARKSYMBOL_3
340
0
102
{BLKREFS
331
F0
102
}
  0
ENDTAB
  0
ENDSEC
  0
SECTION
  2
BLOCKS
  0
BLOCK
  5
20
330
1F
100
AcDbEntity
  8
0
100
AcDbBlockBegin
  2
*Model_Space
 70
     0
 10
0.0
 20
0.0
 30
0.0
  3
*Model_Space
  1

  0
ENDBLK
  5
21
330
1F
100
AcDbEntity
  8
0
100
AcDbBlockEnd
  0
BLOCK
  5
1C
330
1B
100
AcDbEntity
 67
     1
  8
0
100
AcDbBlockBegin
  2
*Paper_Space
 70
     0
 10
0.0
 20
0.0
 30
0.0
  3
*Paper_Space
  1

  0
ENDBLK
  5
1D
330
1B
100
AcDbEntity
 67
     1
  8
0
100
AcDbBlockEnd
  0
BLOCK
  5
24
330
23
100
AcDbEntity
  8
0
100
AcDbBlockBegin
  2
*Paper_Space0
 70
     0
 10
0.0
 20
0.0
 30
0.0
  3
*Paper_Space0
  1

  0
ENDBLK
  5
25
330
23
100
AcDbEntity
  8
0
100
AcDbBlockEnd
  0
BLOCK
  5
8C
330
8B
100
AcDbEntity
  8
0
100
AcDbBlockBegin
  2
SW_CENTERMARKSYMBOL_0
 70
     0
 10
0.0
 20
0.0
 30
0.0
  3
SW_CENTERMARKSYMBOL_0
  1

  0
LINE
  5
8E
330
8B
100
AcDbEntity
  8
FORMAT
 62
     0
100
AcDbLine
 10
0.0
 20
0.0
 30
0.0
 11
0.0
 21
2.5
 31
0.0
  0
LINE
  5
8F
330
8B
100
AcDbEntity
  8
FORMAT
 62
     0
100
AcDbLine
 10
0.0
 20
0.0
 30
0.0
 11
-2.5
 21
0.0
 31
0.0
  0
LINE
  5
90
330
8B
100
AcDbEntity
  8
FORMAT
 62
     0
100
AcDbLine
 10
0.0
 20
0.0
 30
0.0
 11
0.0
 21
-2.5
 31
0.0
  0
LINE
  5
91
330
8B
100
AcDbEntity
  8
FORMAT
 62
     0
100
AcDbLine
 10
0.0
 20
0.0
 30
0.0
 11
2.5
 21
0.0
 31
0.0
  0
LINE
  5
92
330
8B
100
AcDbEntity
  8
FORMAT
 62
     0
100
AcDbLine
 10
0.0
 20
5.0
 30
0.0
 11
0.0
 21
71.5
 31
0.0
  0
LINE
  5
93
330
8B
100
AcDbEntity
  8
FORMAT
 62
     0
100
AcDbLine
 10
-5.0
 20
0.0
 30
0.0
 11
-71.5
 21
0.0
 31
0.0
  0
LINE
  5
94
330
8B
100
AcDbEntity
  8
FORMAT
 62
     0
100
AcDbLine
 10
0.0
 20
-5.0
 30
0.0
 11
0.0
 21
-71.5
 31
0.0
  0
LINE
  5
95
330
8B
100
AcDbEntity
  8
FORMAT
 62
     0
100
AcDbLine
 10
5.0
 20
0.0
 30
0.0
 11
71.5
 21
0.0
 31
0.0
  0
ENDBLK
  5
8D
330
8B
100
AcDbEntity
  8
0
100
AcDbBlockEnd
  0
BLOCK
  5
AA
330
A9
100
AcDbEntity
  8
0
100
AcDbBlockBegin
  2
SW_CENTERMARKSYMBOL_1
 70
     0
 10
0.0
 20
0.0
 30
0.0
  3
SW_CENTERMARKSYMBOL_1
  1

  0
LINE
  5
AC
330
A9
100
AcDbEntity
  8
FORMAT
 62
     0
100
AcDbLine
 10
0.0
 20
0.0
 30
0.0
 11
0.0
 21
2.5
 31
0.0
  0
LINE
  5
AD
330
A9
100
AcDbEntity
  8
FORMAT
 62
     0
100
AcDbLine
 10
0.0
 20
0.0
 30
0.0
 11
-2.5
 21
0.0
 31
0.0
  0
LINE
  5
AE
330
A9
100
AcDbEntity
  8
FORMAT
 62
     0
100
AcDbLine
 10
0.0
 20
0.0
 30
0.0
 11
0.0
 21
-2.5
 31
0.0
  0
LINE
  5
AF
330
A9
100
AcDbEntity
  8
FORMAT
 62
     0
100
AcDbLine
 10
0.0
 20
0.0
 30
0.0
 11
2.5
 21
0.0
 31
0.0
  0
LINE
  5
B0
330
A9
100
AcDbEntity
  8
FORMAT
 62
     0
100
AcDbLine
 10
0.0
 20
5.0
 30
0.0
 11
0.0
 21
34.0
 31
0.0
  0
LINE
  5
B1
330
A9
100
AcDbEntity
  8
FORMAT
 62
     0
100
AcDbLine
 10
-5.0
 20
0.0
 30
0.0
 11
-34.0
 21
0.0
 31
0.0
  0
LINE
  5
B2
330
A9
100
AcDbEntity
  8
FORMAT
 62
     0
100
AcDbLine
 10
0.0
 20
-5.0
 30
0.0
 11
0.0
 21
-34.0
 31
0.0
  0
LINE
  5
B3
330
A9
100
AcDbEntity
  8
FORMAT
 62
     0
100
AcDbLine
 10
5.0
 20
0.0
 30
0.0
 11
34.0
 21
0.0
 31
0.0
  0
ENDBLK
  5
AB
330
A9
100
AcDbEntity
  8
0
100
AcDbBlockEnd
  0
BLOCK
  5
DA
330
D9
100
AcDbEntity
  8
0
100
AcDbBlockBegin
  2
SW_CENTERMARKSYMBOL_2
 70
     0
 10
0.0
 20
0.0
 30
0.0
  3
SW_CENTERMARKSYMBOL_2
  1

  0
LINE
  5
DC
330
D9
100
AcDbEntity
  8
FORMAT
 62
     0
100
AcDbLine
 10
0.0
 20
0.0
 30
0.0
 11
0.0
 21
2.5
 31
0.0
  0
LINE
  5
DD
330
D9
100
AcDbEntity
  8
FORMAT
 62
     0
100
AcDbLine
 10
0.0
 20
0.0
 30
0.0
 11
-2.5
 21
0.0
 31
0.0
  0
LINE
  5
DE
330
D9
100
AcDbEntity
  8
FORMAT
 62
     0
100
AcDbLine
 10
0.0
 20
0.0
 30
0.0
 11
0.0
 21
-2.5
 31
0.0
  0
LINE
  5
DF
330
D9
100
AcDbEntity
  8
FORMAT
 62
     0
100
AcDbLine
 10
0.0
 20
0.0
 30
0.0
 11
2.5
 21
0.0
 31
0.0
  0
LINE
  5
E0
330
D9
100
AcDbEntity
  8
FORMAT
 62
     0
100
AcDbLine
 10
0.0
 20
5.0
 30
0.0
 11
0.0
 21
9.5
 31
0.0
  0
LINE
  5
E1
330
D9
100
AcDbEntity
  8
FORMAT
 62
     0
100
AcDbLine
 10
-5.0
 20
0.0
 30
0.0
 11
-9.5
 21
0.0
 31
0.0
  0
LINE
  5
E2
330
D9
100
AcDbEntity
  8
FORMAT
 62
     0
100
AcDbLine
 10
0.0
 20
-5.0
 30
0.0
 11
0.0
 21
-9.5
 31
0.0
  0
LINE
  5
E3
330
D9
100
AcDbEntity
  8
FORMAT
 62
     0
100
AcDbLine
 10
5.0
 20
0.0
 30
0.0
 11
9.5
 21
0.0
 31
0.0
  0
ENDBLK
  5
DB
330
D9
100
AcDbEntity
  8
0
100
AcDbBlockEnd
  0
BLOCK
  5
E6
330
E5
100
AcDbEntity
  8
0
100
AcDbBlockBegin
  2
SW_CENTERMARKSYMBOL_3
 70
     0
 10
0.0
 20
0.0
 30
0.0
  3
SW_CENTERMARKSYMBOL_3
  1

  0
LINE
  5
E8
330
E5
100
AcDbEntity
  8
FORMAT
 62
     0
100
AcDbLine
 10
0.0
 20
0.0
 30
0.0
 11
0.0
 21
2.5
 31
0.0
  0
LINE
  5
E9
330
E5
100
AcDbEntity
  8
FORMAT
 62
     0
100
AcDbLine
 10
0.0
 20
0.0
 30
0.0
 11
-2.5
 21
0.0
 31
0.0
  0
LINE
  5
EA
330
E5
100
AcDbEntity
  8
FORMAT
 62
     0
100
AcDbLine
 10
0.0
 20
0.0
 30
0.0
 11
0.0
 21
-2.5
 31
0.0
  0
LINE
  5
EB
330
E5
100
AcDbEntity
  8
FORMAT
 62
     0
100
AcDbLine
 10
0.0
 20
0.0
 30
0.0
 11
2.5
 21
0.0
 31
0.0
  0
LINE
  5
EC
330
E5
100
AcDbEntity
  8
FORMAT
 62
     0
100
AcDbLine
 10
0.0
 20
5.0
 30
0.0
 11
0.0
 21
9.5
 31
0.0
  0
LINE
  5
ED
330
E5
100
AcDbEntity
  8
FORMAT
 62
     0
100
AcDbLine
 10
-5.0
 20
0.0
 30
0.0
 11
-9.5
 21
0.0
 31
0.0
  0
LINE
  5
EE
330
E5
100
AcDbEntity
  8
FORMAT
 62
     0
100
AcDbLine
 10
0.0
 20
-5.0
 30
0.0
 11
0.0
 21
-9.5
 31
0.0
  0
LINE
  5
EF
330
E5
100
AcDbEntity
  8
FORMAT
 62
     0
100
AcDbLine
 10
5.0
 20
0.0
 30
0.0
 11
9.5
 21
0.0
 31
0.0
  0
ENDBLK
  5
E7
330
E5
100
AcDbEntity
  8
0
100
AcDbBlockEnd
  0
ENDSEC
  0
SECTION
  2
ENTITIES
  0
LINE
  5
83
330
1F
100
AcDbEntity
  8
0
  6
Continuous
 62
     7
370
    25
100
AcDbLine
 10
105.4042099273
 20
171.4003393747
 30
0.0
 11
105.4042099273
 21
196.7473963439
 31
0.0
  0
LINE
  5
84
330
1F
100
AcDbEntity
  8
0
  6
Continuous
 62
     7
370
    25
100
AcDbLine
 10
91.4042099273
 20
196.7473963439
 30
0.0
 11
91.4042099273
 21
171.391710745
 31
0.0
  0
LINE
  5
85
330
1F
100
AcDbEntity
  8
0
  6
Continuous
 62
     7
370
    25
100
AcDbLine
 10
159.819689957
 20
71.2473963439
 30
0.0
 11
247.4042099273
 21
71.2473963439
 31
0.0
  0
LINE
  5
86
330
1F
100
AcDbEntity
  8
0
  6
Continuous
 62
     7
370
    25
100
AcDbLine
 10
247.4042099273
 20
134.2473963439
 30
0.0
 11
159.8158708158
 21
134.2473963439
 31
0.0
  0
CIRCLE
  5
87
330
1F
100
AcDbEntity
  8
0
  6
Continuous
 62
     7
370
    25
100
AcDbCircle
 10
98.4042099273
 20
102.7473963439
 30
0.0
 40
55.0
  0
CIRCLE
  5
88
330
1F
100
AcDbEntity
  8
0
  6
Continuous
 62
     7
370
    25
100
AcDbCircle
 10
98.4042099273
 20
102.7473963439
 30
0.0
 40
68.99999999999997
  0
LINE
  5
89
330
1F
100
AcDbEntity
  8
0
  6
Continuous
 62
     7
370
    25
100
AcDbLine
 10
105.4042099273
 20
196.7473963439
 30
0.0
 11
91.4042099273
 21
196.7473963439
 31
0.0
  0
LINE
  5
8A
330
1F
100
AcDbEntity
  8
0
  6
Continuous
 62
     7
370
    25
100
AcDbLine
 10
247.4042099273
 20
134.2473963439
 30
0.0
 11
247.4042099273
 21
71.2473963439
 31
0.0
  0
INSERT
  5
96
330
1F
100
AcDbEntity
  8
FORMAT
 62
     7
100
AcDbBlockReference
  2
SW_CENTERMARKSYMBOL_0
 10
98.4042099273
 20
102.7473963439
 30
0.0
  0
LINE
  5
97
330
1F
100
AcDbEntity
  8
0
  6
Continuous
 62
     7
370
    25
100
AcDbLine
 10
-313.244915721
 20
171.7473963439
 30
0.0
 11
-314.3321215399
 21
171.7473963439
 31
0.0
  0
LINE
  5
98
330
1F
100
AcDbEntity
  8
0
  6
Continuous
 62
     7
370
    25
100
AcDbLine
 10
-69.244915721
 20
171.7473963439
 30
0.0
 11
-299.3321215399
 21
171.7473963439
 31
0.0
  0
LINE
  5
99
330
1F
100
AcDbEntity
  8
0
  6
Continuous
 62
     7
370
    25
100
AcDbLine
 10
-54.3321215399
 20
171.7473963439
 30
0.0
 11
-55.3321215399
 21
171.7473963439
 31
0.0
  0
LINE
  5
9A
330
1F
100
AcDbEntity
  8
0
  6
Continuous
 62
     7
370
    25
100
AcDbLine
 10
-314.3321215399
 20
33.7473963439
 30
0.0
 11
-54.3321215399
 21
33.7473963439
 31
0.0
  0
LINE
  5
9B
330
1F
100
AcDbEntity
  8
0
  6
Continuous
 62
     7
370
    25
100
AcDbLine
 10
-55.3321215399
 20
171.7473963439
 30
0.0
 11
-55.3321215399
 21
196.7473963439
 31
0.0
  0
LINE
  5
9C
330
1F
100
AcDbEntity
  8
0
  6
Continuous
 62
     7
370
    25
100
AcDbLine
 10
-69.3321215399
 20
196.7473963439
 30
0.0
 11
-69.3321215399
 21
171.7386620036
 31
0.0
  0
LINE
  5
9D
330
1F
100
AcDbEntity
  8
0
  6
Continuous
 62
     7
370
    25
100
AcDbLine
 10
-299.3321215399
 20
171.7473963439
 30
0.0
 11
-299.3321215399
 21
196.7473963439
 31
0.0
  0
LINE
  5
9E
330
1F
100
AcDbEntity
  8
0
  6
Continuous
 62
     7
370
    25
100
AcDbLine
 10
-313.3321215399
 20
196.7473963439
 30
0.0
 11
-313.3321215399
 21
171.7386620036
 31
0.0
  0
CIRCLE
  5
9F
330
1F
100
AcDbEntity
  8
0
  6
Continuous
 62
     7
370
    25
100
AcDbCircle
 10
-184.3321215399
 20
102.7473963439
 30
0.0
 40
25.70000000000002
  0
CIRCLE
  5
A0
330
1F
100
AcDbEntity
  8
0
  6
Continuous
 62
     7
370
    25
100
AcDbCircle
 10
-184.3321215399
 20
102.7473963439
 30
0.0
 40
31.5
  0
LINE
  5
A1
330
1F
100
AcDbEntity
  8
0
  6
Continuous
 62
     7
370
    25
100
AcDbLine
 10
-314.3321215399
 20
102.7473963439
 30
0.0
 11
-314.3321215399
 21
171.7473963439
 31
0.0
  0
LINE
  5
A2
330
1F
100
AcDbEntity
  8
0
  6
Continuous
 62
     7
370
    25
100
AcDbLine
 10
-314.3321215399
 20
33.7473963439
 30
0.0
 11
-314.3321215399
 21
102.7473963439
 31
0.0
  0
LINE
  5
A3
330
1F
100
AcDbEntity
  8
0
  6
Continuous
 62
     7
370
    25
100
AcDbLine
 10
-54.3321215399
 20
102.7473963439
 30
0.0
 11
-54.3321215399
 21
171.7473963439
 31
0.0
  0
LINE
  5
A4
330
1F
100
AcDbEntity
  8
0
  6
Continuous
 62
     7
370
    25
100
AcDbLine
 10
-54.3321215399
 20
33.7473963439
 30
0.0
 11
-54.3321215399
 21
102.7473963439
 31
0.0
  0
SPLINE
  5
A5
330
1F
100
AcDbEntity
  8
0
  6
Continuous
 62
     7
370
    25
100
AcDbSpline
210
0.0
220
0.0
230
1.0
 70
     8
 71
     3
 72
    17
 73
    13
 74
     0
 42
0.00000001
 43
0.00000001
 40
0.0
 40
0.0
 40
0.0
 40
0.0
 40
0.1069961512857103
 40
0.2139791165783827
 40
0.3213049282158957
 40
0.4288619275343048
 40
0.536043857965802
 40
0.6428293933890149
 40
0.7498156527814165
 40
0.8572855683583327
 40
0.9647697587261224
 40
1.0
 40
1.0
 40
1.0
 40
1.0
 10
-299.3321215399378
 20
171.7473963439193
 30
0.0
 10
-299.4091105966003
 20
171.7393658381098
 30
0.0
 10
-299.5630792219465
 20
171.7233058161541
 30
0.0
 10
-300.7628210169893
 20
171.6115265760137
 30
0.0
 10
-302.5328894623346
 20
171.4866415152829
 30
0.0
 10
-304.7489953784882
 20
171.3962129530429
 30
0.0
 10
-307.1383151371415
 20
171.3824235049456
 30
0.0
 10
-309.428626300645
 20
171.44985431341
 30
0.0
 10
-311.3867647033635
 20
171.5706843999769
 30
0.0
 10
-312.7271939783224
 20
171.6860161124563
 30
0.0
 10
-313.367731413823
 20
171.750960453748
 30
0.0
 10
-313.2692312929406
 20
171.741073725312
 30
0.0
 10
-313.2449157210375
 20
171.7386331043868
 30
0.0
  0
SPLINE
  5
A6
330
1F
100
AcDbEntity
  8
0
  6
Continuous
 62
     7
370
    25
100
AcDbSpline
210
0.0
220
0.0
230
1.0
 70
     8
 71
     3
 72
    17
 73
    13
 74
     0
 42
0.00000001
 43
0.00000001
 40
0.0
 40
0.0
 40
0.0
 40
0.0
 40
0.1069961512857102
 40
0.213979116578383
 40
0.321304928215896
 40
0.4288619275343042
 40
0.5360438579658013
 40
0.6428293933890143
 40
0.7498156527814162
 40
0.8572855683583313
 40
0.964769758726121
 40
1.0
 40
1.0
 40
1.0
 40
1.0
 10
-55.33212153993783
 20
171.7473963439193
 30
0.0
 10
-55.40911059660014
 20
171.7393658381098
 30
0.0
 10
-55.56307922194642
 20
171.7233058161541
 30
0.0
 10
-56.76282101698937
 20
171.6115265760137
 30
0.0
 10
-58.53288946233457
 20
171.4866415152829
 30
0.0
 10
-60.7489953784882
 20
171.396212953043
 30
0.0
 10
-63.13831513714152
 20
171.3824235049455
 30
0.0
 10
-65.42862630064502
 20
171.44985431341
 30
0.0
 10
-67.38676470336348
 20
171.5706843999769
 30
0.0
 10
-68.72719397832242
 20
171.6860161124563
 30
0.0
 10
-69.36773141382295
 20
171.750960453748
 30
0.0
 10
-69.26923129294066
 20
171.741073725312
 30
0.0
 10
-69.24491572103756
 20
171.7386331043867
 30
0.0
  0
LINE
  5
A7
330
1F
100
AcDbEntity
  8
0
  6
Continuous
 62
     7
370
    25
100
AcDbLine
 10
-55.3321215399
 20
196.7473963439
 30
0.0
 11
-69.3321215399
 21
196.7473963439
 31
0.0
  0
LINE
  5
A8
330
1F
100
AcDbEntity
  8
0
  6
Continuous
 62
     7
370
    25
100
AcDbLine
 10
-299.3321215399
 20
196.7473963439
 30
0.0
 11
-313.3321215399
 21
196.7473963439
 31
0.0
  0
INSERT
  5
B4
330
1F
100
AcDbEntity
  8
FORMAT
 62
     7
100
AcDbBlockReference
  2
SW_CENTERMARKSYMBOL_1
 10
-184.3321215399
 20
102.7473963439
 30
0.0
  0
LINE
  5
B5
330
1F
100
AcDbEntity
  8
0
  6
Continuous
 62
     7
370
    25
100
AcDbLine
 10
167.4042099273
 20
408.1934731588
 30
0.0
 11
167.4042099273
 21
506.6934731588
 31
0.0
  0
LINE
  5
B6
330
1F
100
AcDbEntity
  8
0
  6
Continuous
 62
     7
370
    25
100
AcDbLine
 10
167.4042099273
 20
246.6934731588
 30
0.0
 11
167.4042099273
 21
345.2808033611
 31
0.0
  0
LINE
  5
B7
330
1F
100
AcDbEntity
  8
0
  6
Continuous
 62
     7
370
    25
100
AcDbLine
 10
29.4042099273
 20
506.6934731588
 30
0.0
 11
29.4042099273
 21
246.6934731588
 31
0.0
  0
LINE
  5
B8
330
1F
100
AcDbEntity
  8
0
  6
Continuous
 62
     7
370
    25
100
AcDbLine
 10
167.3644756434
 20
345.1934731588
 30
0.0
 11
247.4042099273
 21
345.1934731588
 31
0.0
  0
LINE
  5
B9
330
1F
100
AcDbEntity
  8
0
  6
Continuous
 62
     7
370
    25
100
AcDbLine
 10
247.4042099273
 20
408.1934731588
 30
0.0
 11
167.4042099273
 21
408.1934731588
 31
0.0
  0
SPLINE
  5
BA
330
1F
100
AcDbEntity
  8
0
  6
Continuous
 62
     7
370
    25
100
AcDbSpline
210
0.0
220
0.0
230
1.0
 70
     8
 71
     3
 72
    30
 73
    26
 74
     0
 42
0.00000001
 43
0.00000001
 40
0.0
 40
0.0
 40
0.0
 40
0.0
 40
0.0493197960706044
 40
0.1001541467941676
 40
0.1494531870677231
 40
0.2000509088073959
 40
0.2519866652651417
 40
0.3052574644929009
 40
0.3602251865342171
 40
0.3886243917071417
 40
0.4170209378576863
 40
0.4688786139298168
 40
0.495757151961298
 40
0.522635542231622
 40
0.5697011923132833
 40
0.6180820973263934
 40
0.666333512666924
 40
0.715739575800527
 40
0.768917473906435
 40
0.8235345191797174
 40
0.8782697312457467
 40
0.9065874223038617
 40
0.9349032032551398
 40
0.9856390003565422
 40
1.0
 40
1.0
 40
1.0
 40
1.0
 10
167.4042099273416
 20
408.1934731587671
 30
0.0
 10
167.3696479616139
 20
408.1181284722385
 30
0.0
 10
167.2994626716335
 20
407.9651253498424
 30
0.0
 10
166.7485634164569
 20
406.7411403969438
 30
0.0
 10
165.9232087867015
 20
404.8257364781034
 30
0.0
 10
164.8652894251916
 20
402.2045294237727
 30
0.0
 10
163.6511136450508
 20
398.8820639818618
 30
0.0
 10
162.3845447342709
 20
394.8725596276122
 30
0.0
 10
161.4022838210166
 20
390.9987891341805
 30
0.0
 10
160.738714225209
 20
387.6043334009061
 30
0.0
 10
160.2082172549662
 20
384.1769609839447
 30
0.0
 10
159.8777127773689
 20
380.6467955285436
 30
0.0
 10
159.7765952331459
 20
377.1186596451777
 30
0.0
 10
159.8265650161313
 20
373.7452142342804
 30
0.0
 10
160.1343125992908
 20
369.6916545881348
 30
0.0
 10
160.8229977096652
 20
365.127760096503
 30
0.0
 10
161.7759231592665
 20
360.7995714497531
 30
0.0
 10
162.9208282107152
 20
356.7371961529985
 30
0.0
 10
164.171923997388
 20
353.0248684380279
 30
0.0
 10
165.3959330456294
 20
349.8348845803914
 30
0.0
 10
166.2625703590916
 20
347.7688733663929
 30
0.0
 10
166.8041615814169
 20
346.5273720321808
 30
0.0
 10
167.1905402516859
 20
345.6612157941275
 30
0.0
 10
167.4298754860835
 20
345.1370970136011
 30
0.0
 10
167.3762589967466
 20
345.254830242067
 30
0.0
 10
167.3644306668939
 20
345.280803361123
 30
0.0
  0
LINE
  5
BB
330
1F
100
AcDbEntity
  8
0
  6
Continuous
 62
     7
370
    25
100
AcDbLine
 10
29.4042099273
 20
506.6934731588
 30
0.0
 11
167.4042099273
 21
506.6934731588
 31
0.0
  0
LINE
  5
BC
330
1F
100
AcDbEntity
  8
0
  6
Continuous
 62
     7
370
    25
100
AcDbLine
 10
29.4042099273
 20
246.6934731588
 30
0.0
 11
167.4042099273
 21
246.6934731588
 31
0.0
  0
LINE
  5
BD
330
1F
100
AcDbEntity
  8
0
  6
Continuous
 62
     7
370
    25
100
AcDbLine
 10
247.4042099273
 20
408.1934731588
 30
0.0
 11
247.4042099273
 21
345.1934731588
 31
0.0
  0
LINE
  5
BE
330
1F
100
AcDbEntity
  8
0
  6
Continuous
 62
     7
370
    25
100
AcDbLine
 10
321.8949941737
 20
33.7473963439
 30
0.0
 11
581.8949941737
 21
33.7473963439
 31
0.0
  0
LINE
  5
BF
330
1F
100
AcDbEntity
  8
0
  6
Continuous
 62
     7
370
    25
100
AcDbLine
 10
322.8949941737
 20
171.7473963439
 30
0.0
 11
321.8949941737
 21
171.7473963439
 31
0.0
  0
LINE
  5
C0
330
1F
100
AcDbEntity
  8
0
  6
Continuous
 62
     7
370
    25
100
AcDbLine
 10
566.8949941737
 20
171.7473963439
 30
0.0
 11
336.8077883548
 21
171.7473963439
 31
0.0
  0
LINE
  5
C1
330
1F
100
AcDbEntity
  8
0
  6
Continuous
 62
     7
370
    25
100
AcDbLine
 10
581.8949941737
 20
171.7473963439
 30
0.0
 11
580.8077883548
 21
171.7473963439
 31
0.0
  0
LINE
  5
C2
330
1F
100
AcDbEntity
  8
0
  6
Continuous
 62
     7
370
    25
100
AcDbLine
 10
336.8949941737
 20
171.7473963439
 30
0.0
 11
336.8949941737
 21
196.7473963439
 31
0.0
  0
LINE
  5
C3
330
1F
100
AcDbEntity
  8
0
  6
Continuous
 62
     7
370
    25
100
AcDbLine
 10
322.8949941737
 20
196.7473963439
 30
0.0
 11
322.8949941737
 21
171.7473963439
 31
0.0
  0
LINE
  5
C4
330
1F
100
AcDbEntity
  8
0
  6
Continuous
 62
     7
370
    25
100
AcDbLine
 10
580.8949941737
 20
171.7473963439
 30
0.0
 11
580.8949941737
 21
196.7473963439
 31
0.0
  0
LINE
  5
C5
330
1F
100
AcDbEntity
  8
0
  6
Continuous
 62
     7
370
    25
100
AcDbLine
 10
566.8949941737
 20
196.7473963439
 30
0.0
 11
566.8949941737
 21
171.7473963439
 31
0.0
  0
LINE
  5
C6
330
1F
100
AcDbEntity
  8
0
  6
Continuous
 62
     7
370
    25
100
AcDbLine
 10
581.8949941737
 20
171.7473963439
 30
0.0
 11
581.8949941737
 21
33.7473963439
 31
0.0
  0
LINE
  5
C7
330
1F
100
AcDbEntity
  8
0
  6
Continuous
 62
     7
370
    25
100
AcDbLine
 10
321.8949941737
 20
171.7473963439
 30
0.0
 11
321.8949941737
 21
33.7473963439
 31
0.0
  0
ARC
  5
C8
330
1F
100
AcDbEntity
  8
0
  6
Continuous
 62
     7
370
    25
100
AcDbCircle
 10
573.8947347292
 20
240.5564603136
 30
0.0
 40
69.16417896733115
100
AcDbArc
 50
264.191452851
 51
275.7363694733
  0
ARC
  5
C9
330
1F
100
AcDbEntity
  8
0
  6
Continuous
 62
     7
370
    25
100
AcDbCircle
 10
329.8947347292
 20
240.5564603136
 30
0.0
 40
69.16417896730934
100
AcDbArc
 50
264.191452851
 51
275.7363694733
  0
LINE
  5
CA
330
1F
100
AcDbEntity
  8
0
  6
Continuous
 62
     7
370
    25
100
AcDbLine
 10
336.8949941737
 20
196.7473963439
 30
0.0
 11
322.8949941737
 21
196.7473963439
 31
0.0
  0
LINE
  5
CB
330
1F
100
AcDbEntity
  8
0
  6
Continuous
 62
     7
370
    25
100
AcDbLine
 10
580.8949941737
 20
196.7473963439
 30
0.0
 11
566.8949941737
 21
196.7473963439
 31
0.0
  0
LINE
  5
CC
330
1F
100
AcDbEntity
  8
0
  6
Continuous
 62
     7
370
    25
100
AcDbLine
 10
29.4042099273
 20
-22.1763516733
 30
0.0
 11
29.4042099273
 21
-282.1763516733
 31
0.0
  0
LINE
  5
CD
330
1F
100
AcDbEntity
  8
0
  6
Continuous
 62
     7
370
    25
100
AcDbLine
 10
167.4042099273
 20
-120.7636818757
 30
0.0
 11
167.4042099273
 21
-22.1763516733
 31
0.0
  0
LINE
  5
CE
330
1F
100
AcDbEntity
  8
0
  6
Continuous
 62
     7
370
    25
100
AcDbLine
 10
167.4042099273
 20
-282.1763516733
 30
0.0
 11
167.4042099273
 21
-183.6763516733
 31
0.0
  0
LINE
  5
CF
330
1F
100
AcDbEntity
  8
0
  6
Continuous
 62
     7
370
    25
100
AcDbLine
 10
167.4042099273
 20
-183.6763516733
 30
0.0
 11
247.4042099273
 21
-183.6763516733
 31
0.0
  0
LINE
  5
D0
330
1F
100
AcDbEntity
  8
0
  6
Continuous
 62
     7
370
    25
100
AcDbLine
 10
247.4042099273
 20
-120.6763516733
 30
0.0
 11
167.4042099273
 21
-120.6763516733
 31
0.0
  0
CIRCLE
  5
D1
330
1F
100
AcDbEntity
  8
0
  6
Continuous
 62
     7
370
    25
100
AcDbCircle
 10
98.4042099273
 20
-30.1763516733
 30
0.0
 40
7.000000000000018
  0
CIRCLE
  5
D2
330
1F
100
AcDbEntity
  8
0
  6
Continuous
 62
     7
370
    25
100
AcDbCircle
 10
98.4042099273
 20
-30.1763516733
 30
0.0
 40
5.000000000000004
  0
CIRCLE
  5
D3
330
1F
100
AcDbEntity
  8
0
  6
Continuous
 62
     7
370
    25
100
AcDbCircle
 10
98.4042099273
 20
-274.1763516733
 30
0.0
 40
5.0
  0
CIRCLE
  5
D4
330
1F
100
AcDbEntity
  8
0
  6
Continuous
 62
     7
370
    25
100
AcDbCircle
 10
98.4042099273
 20
-274.1763516733
 30
0.0
 40
7.0
  0
LWPOLYLINE
  5
D5
330
1F
100
AcDbEntity
  8
0
  6
Continuous
 62
     7
370
    25
100
AcDbPolyline
 90
       24
 70
   128
 43
0.0
 10
167.3644306669
 20
-120.7636818757
 10
167.2988336369
 20
-120.9078503329
 10
166.8803462926
 20
-121.8410380685
 10
166.1580326568
 20
-123.5087655446
 10
165.2006378272
 20
-125.8512157728
 10
164.067382446
 20
-128.8760893311
 10
162.8141923277
 20
-132.6854349988
 10
161.6023366694
 20
-137.1679132569
 10
160.6137030738
 20
-142.1130004649
 10
160.2340762206
 20
-144.8177807773
 10
159.9651740642
 20
-147.5935244395
 10
159.7956926884
 20
-152.581512875
 10
160.0442815567
 20
-157.721478405
 10
160.6116000349
 20
-162.2266941549
 10
161.4622595988
 20
-166.583559188
 10
162.5388552038
 20
-170.737136267
 10
163.7321123959
 20
-174.5143202682
 10
164.9772841627
 20
-177.9294915429
 10
166.0948104658
 20
-180.6941952323
 10
166.893838073
 20
-182.5421081029
 10
167.1707454408
 20
-183.1617859991
 10
167.3429000817
 20
-183.5418263262
 10
167.4042099273
 20
-183.6763516733
 10
167.4042099273
 20
-183.6763516733
  0
LINE
  5
D6
330
1F
100
AcDbEntity
  8
0
  6
Continuous
 62
     7
370
    25
100
AcDbLine
 10
167.4042099273
 20
-282.1763516733
 30
0.0
 11
29.4042099273
 21
-282.1763516733
 31
0.0
  0
LINE
  5
D7
330
1F
100
AcDbEntity
  8
0
  6
Continuous
 62
     7
370
    25
100
AcDbLine
 10
167.4042099273
 20
-22.1763516733
 30
0.0
 11
29.4042099273
 21
-22.1763516733
 31
0.0
  0
LINE
  5
D8
330
1F
100
AcDbEntity
  8
0
  6
Continuous
 62
     7
370
    25
100
AcDbLine
 10
247.4042099273
 20
-120.6763516733
 30
0.0
 11
247.4042099273
 21
-183.6763516733
 31
0.0
  0
INSERT
  5
E4
330
1F
100
AcDbEntity
  8
FORMAT
 62
     7
100
AcDbBlockReference
  2
SW_CENTERMARKSYMBOL_2
 10
98.4042099273
 20
-274.1763516733
 30
0.0
  0
INSERT
  5
F0
330
1F
100
AcDbEntity
  8
FORMAT
 62
     7
100
AcDbBlockReference
  2
SW_CENTERMARKSYMBOL_3
 10
98.4042099273
 20
-30.1763516733
 30
0.0
  0
LINE
  5
F1
330
1F
100
AcDbEntity
  8
0
  6
Continuous
 62
     7
370
    25
100
AcDbLine
 10
569.8231602947
 20
-133.3728794212
 30
0.0
 11
543.9102504984
 21
-118.4136750114
 31
0.0
  0
LINE
  5
F2
330
1F
100
AcDbEntity
  8
0
  6
Continuous
 62
     7
370
    25
100
AcDbLine
 10
480.9051302384
 20
-82.0415932868
 30
0.0
 11
385.9753971862
 21
-27.2398248842
 31
0.0
  0
LINE
  5
F3
330
1F
100
AcDbEntity
  8
0
  6
Continuous
 62
     7
370
    25
100
AcDbLine
 10
316.9810046344
 20
-146.7545678928
 30
0.0
 11
500.8287677429
 21
-252.8876224297
 31
0.0
  0
LINE
  5
F4
330
1F
100
AcDbEntity
  8
0
  6
Continuous
 62
     7
370
    25
100
AcDbLine
 10
505.3275983774
 20
-140.6869659805
 30
0.0
 11
564.5097129004
 21
-106.5218584912
 31
0.0
  0
LINE
  5
F5
330
1F
100
AcDbEntity
  8
0
  6
Continuous
 62
     7
370
    25
100
AcDbLine
 10
533.0122728223
 20
-51.9607801612
 30
0.0
 11
473.8313851262
 21
-86.1251794185
 31
0.0
  0
LINE
  5
F6
330
1F
100
AcDbEntity
  8
0
  6
Continuous
 62
     7
370
    25
100
AcDbLine
 10
364.1350551598
 20
-25.2779950078
 30
0.0
 11
364.1350551598
 21
-13.5079925185
 31
0.0
  0
LINE
  5
F7
330
1F
100
AcDbEntity
  8
0
  6
Continuous
 62
     7
370
    25
100
AcDbLine
 10
350.1350551598
 20
-13.5079925185
 30
0.0
 11
350.1350551598
 21
-31.4526148317
 31
0.0
  0
SPLINE
  5
F8
330
1F
100
AcDbEntity
  8
0
  6
Continuous
 62
     7
370
    25
100
AcDbSpline
210
0.0
220
0.0
230
1.0
 70
     8
 71
     3
 72
    24
 73
    20
 74
     0
 42
0.00000001
 43
0.00000001
 40
0.0
 40
0.0
 40
0.0
 40
0.0
 40
0.0667438389239874
 40
0.1335034967494758
 40
0.2000734272274472
 40
0.2666676801020917
 40
0.3367884906980325
 40
0.4069115875280155
 40
0.4565368784815355
 40
0.5063261242524789
 40
0.5559197721690257
 40
0.6028013312338253
 40
0.6498595824023183
 40
0.6967280773141292
 40
0.7603306417516494
 40
0.8239578719314347
 40
0.8890377452309395
 40
0.9541386365206294
 40
1.0
 40
1.0
 40
1.0
 40
1.0
 10
469.9185867590459
 20
-99.0392160378768
 30
0.0
 10
469.9486437791165
 20
-100.4547961994697
 30
0.0
 10
470.0087649430471
 20
-103.2862920281268
 30
0.0
 10
470.4872773294504
 20
-107.9904687851219
 30
0.0
 10
471.2577163176695
 20
-112.8476048965129
 30
0.0
 10
472.3685184924797
 20
-117.8350611366517
 30
0.0
 10
473.8574485567241
 20
-122.8092828464994
 30
0.0
 10
475.5828279611043
 20
-127.158938437565
 30
0.0
 10
477.427556062229
 20
-130.7682162770484
 30
0.0
 10
479.2758771492652
 20
-133.6950697453681
 30
0.0
 10
481.3154022938736
 20
-136.2759904898971
 30
0.0
 10
483.5405608384989
 20
-138.4605907273675
 30
0.0
 10
485.9058724266872
 20
-140.2454395281912
 30
0.0
 10
488.7248335702583
 20
-141.8054215653187
 30
0.0
 10
492.0210500941704
 20
-142.8978431347493
 30
0.0
 10
495.7505281206278
 20
-143.3433443980215
 30
0.0
 10
499.4556291709192
 20
-142.9814278389934
 30
0.0
 10
502.720579411961
 20
-142.1001262047162
 30
0.0
 10
504.5296674018804
 20
-141.0367683068231
 30
0.0
 10
505.2773742869337
 20
-140.5972761284655
 30
0.0
  0
SPLINE
  5
F9
330
1F
100
AcDbEntity
  8
0
  6
Continuous
 62
     7
370
    25
100
AcDbSpline
210
0.0
220
0.0
230
1.0
 70
     8
 71
     3
 72
    14
 73
    10
 74
     0
 42
0.00000001
 43
0.00000001
 40
0.0
 40
0.0
 40
0.0
 40
0.0
 40
0.0038194370738466
 40
0.2248267141257812
 40
0.4457561116022172
 40
0.5916176010316524
 40
0.7380047518118776
 40
0.8837991171106356
 40
1.0
 40
1.0
 40
1.0
 40
1.0
 10
473.8346946790685
 20
-86.13153826404267
 30
0.0
 10
473.8232962960799
 20
-86.13536999867395
 30
0.0
 10
473.1523437593302
 20
-86.36092059419231
 30
0.0
 10
472.2115846308179
 20
-87.51436573890338
 30
0.0
 10
471.1604020248164
 20
-89.46037131265349
 30
0.0
 10
470.5328557819323
 20
-91.76906510208113
 30
0.0
 10
470.1573080704592
 20
-94.0734546553434
 30
0.0
 10
469.9514175070712
 20
-96.50924281229561
 30
0.0
 10
469.9286740169339
 20
-98.26188095075833
 30
0.0
 10
469.9185867590459
 20
-99.0392160378768
 30
0.0
  0
LWPOLYLINE
  5
FA
330
1F
100
AcDbEntity
  8
0
  6
Continuous
 62
     7
370
    25
100
AcDbPolyline
 90
      103
 70
   128
 43
0.0
 10
400.2685688122
 20
-58.8311165306
 10
400.1760295235
 20
-55.4161158579
 10
399.8987626906
 20
-52.120913041
 10
399.4378200815
 20
-48.9580079128
 10
398.7949502096
 20
-45.9393984559
 10
397.9725917003
 20
-43.07653529
 10
396.9738640412
 20
-40.3802782355
 10
395.8025557484
 20
-37.8608551192
 10
394.4631099955
 20
-35.5278229757
 10
392.960607759
 20
-33.3900317952
 10
391.3007485445
 20
-31.4555909518
 10
389.4898287666
 20
-29.7318384423
 10
387.5347178643
 20
-28.2253130503
 10
385.4428322428
 20
-26.9417295427
 10
383.222107141
 20
-25.8859569915
 10
380.8809665297
 20
-25.0620003034
 10
378.4282911571
 20
-24.4729850285
 10
375.8733848612
 20
-24.1211455035
 10
373.2259392766
 20
-24.0078163761
 10
370.4959970712
 20
-24.1334275426
 10
367.6939138509
 20
-24.4975025169
 10
364.830318877
 20
-25.0986602377
 10
361.9160747463
 20
-25.934620308
 10
358.9622361849
 20
-27.0022116449
 10
355.9800081142
 20
-28.2973845088
 10
352.9807031468
 20
-29.8152258654
 10
349.9756986738
 20
-31.5499780224
 10
346.9763937064
 20
-33.4950604708
 10
343.9941656357
 20
-35.6430948466
 10
341.0403270743
 20
-37.9859329197
 10
338.1260829436
 20
-40.5146875028
 10
335.2624879697
 20
-43.2197661635
 10
332.4604047494
 20
-46.0909076119
 10
329.730462544
 20
-49.1172206252
 10
327.0830169594
 20
-52.2872253614
 10
324.5281106634
 20
-55.5888969067
 10
322.0754352909
 20
-59.0097108902
 10
319.7342946796
 20
-62.5366909926
 10
317.5135695778
 20
-66.1564581703
 10
315.4216839563
 20
-69.8552814066
 10
313.466573054
 20
-73.6191297979
 10
311.6556532761
 20
-77.4337257781
 10
309.9957940616
 20
-81.2845992782
 10
308.4932918251
 20
-85.1571426157
 10
307.1538460722
 20
-89.0366659075
 10
305.9825377794
 20
-92.9084527929
 10
304.9838101203
 20
-96.7578162579
 10
304.161451611
 20
-100.5701543485
 10
303.5185817391
 20
-104.3310055605
 10
303.05763913
 20
-108.026103697
 10
302.7803722971
 20
-111.6414319851
 10
302.6878330084
 20
-115.1632762464
 10
302.7803722971
 20
-118.5782769191
 10
303.05763913
 20
-121.873479736
 10
303.5185817391
 20
-125.0363848642
 10
304.161451611
 20
-128.0549943211
 10
304.9838101203
 20
-130.917857487
 10
305.9825377794
 20
-133.6141145414
 10
307.1538460722
 20
-136.1335376578
 10
308.4932918251
 20
-138.4665698013
 10
309.9957940616
 20
-140.6043609818
 10
311.6556532761
 20
-142.5388018252
 10
313.466573054
 20
-144.2625543347
 10
315.4216839563
 20
-145.7690797267
 10
317.5135695778
 20
-147.0526632343
 10
319.7342946796
 20
-148.1084357855
 10
322.0754352909
 20
-148.9323924736
 10
324.5281106634
 20
-149.5214077485
 10
327.0830169594
 20
-149.8732472735
 10
329.730462544
 20
-149.9865764009
 10
332.4604047494
 20
-149.8609652343
 10
335.2624879697
 20
-149.4968902601
 10
338.1260829436
 20
-148.8957325393
 10
341.0403270743
 20
-148.0597724689
 10
343.9941656357
 20
-146.992181132
 10
346.9763937064
 20
-145.6970082682
 10
349.9756986738
 20
-144.1791669116
 10
352.9807031468
 20
-142.4444147546
 10
355.9800081142
 20
-140.4993323062
 10
358.9622361849
 20
-138.3512979303
 10
361.9160747463
 20
-136.0084598573
 10
364.830318877
 20
-133.4797052742
 10
367.6939138509
 20
-130.7746266135
 10
370.4959970712
 20
-127.9034851651
 10
373.2259392766
 20
-124.8771721518
 10
375.8733848612
 20
-121.7071674156
 10
378.4282911572
 20
-118.4054958703
 10
380.8809665297
 20
-114.9846818868
 10
383.222107141
 20
-111.4577017844
 10
385.4428322428
 20
-107.8379346067
 10
387.5347178643
 20
-104.1391113704
 10
389.4898287666
 20
-100.3752629791
 10
391.3007485445
 20
-96.5606669988
 10
392.960607759
 20
-92.7097934988
 10
394.4631099955
 20
-88.8372501612
 10
395.8025557484
 20
-84.9577268695
 10
396.9738640412
 20
-81.0859399841
 10
397.9725917003
 20
-77.2365765191
 10
398.7949502096
 20
-73.4242384285
 10
399.4378200815
 20
-69.6633872165
 10
399.8987626906
 20
-65.96828908
 10
400.1760295235
 20
-62.3529607918
 10
400.2685688122
 20
-58.8311165306
  0
LWPOLYLINE
  5
FB
330
1F
100
AcDbEntity
  8
0
  6
Continuous
 62
     7
370
    25
100
AcDbPolyline
 90
       14
 70
   128
 43
0.0
 10
584.1163319207
 20
-164.9641710676
 10
584.023792632
 20
-161.5491703948
 10
583.7465257991
 20
-158.2539675779
 10
583.28558319
 20
-155.0910624497
 10
582.6427133181
 20
-152.0724529929
 10
581.8203548088
 20
-149.2095898269
 10
580.8216271497
 20
-146.5133327725
 10
579.650318857
 20
-143.9939096561
 10
578.310873104
 20
-141.6608775126
 10
576.8083708675
 20
-139.5230863321
 10
575.148511653
 20
-137.5886454887
 10
573.3375918751
 20
-135.8648929792
 10
571.3824809728
 20
-134.3583675873
 10
569.8231602947
 20
-133.3728794212
  0
LWPOLYLINE
  5
FC
330
1F
100
AcDbEntity
  8
0
  6
Continuous
 62
     7
370
    25
100
AcDbPolyline
 90
       40
 70
   128
 43
0.0
 10
500.8287677429
 20
-252.8876224297
 10
501.3613326863
 20
-253.1857177712
 10
503.5820577881
 20
-254.2414903225
 10
505.9231983994
 20
-255.0654470105
 10
508.375873772
 20
-255.6544622854
 10
510.9307800679
 20
-256.0063018105
 10
513.5782256525
 20
-256.1196309378
 10
516.3081678579
 20
-255.9940197713
 10
519.1102510782
 20
-255.6299447971
 10
521.9738460521
 20
-255.0287870762
 10
524.8880901828
 20
-254.1928270059
 10
527.8419287442
 20
-253.125235669
 10
530.8241568149
 20
-251.8300628051
 10
533.8234617823
 20
-250.3122214486
 10
536.8284662553
 20
-248.5774692915
 10
539.8277712227
 20
-246.6323868431
 10
542.8099992934
 20
-244.4843524673
 10
545.7638378548
 20
-242.1415143942
 10
548.6780819855
 20
-239.6127598112
 10
551.5416769594
 20
-236.9076811505
 10
554.3437601797
 20
-234.036539702
 10
557.0737023851
 20
-231.0102266888
 10
559.7211479697
 20
-227.8402219526
 10
562.2760542657
 20
-224.5385504072
 10
564.7287296382
 20
-221.1177364238
 10
567.0698702495
 20
-217.5907563214
 10
569.2905953513
 20
-213.9709891437
 10
571.3824809728
 20
-210.2721659074
 10
573.3375918751
 20
-206.508317516
 10
575.148511653
 20
-202.6937215358
 10
576.8083708675
 20
-198.8428480358
 10
578.310873104
 20
-194.9703046982
 10
579.650318857
 20
-191.0907814064
 10
580.8216271497
 20
-187.2189945211
 10
581.8203548088
 20
-183.369631056
 10
582.6427133181
 20
-179.5572929654
 10
583.28558319
 20
-175.7964417534
 10
583.7465257991
 20
-172.1013436169
 10
584.023792632
 20
-168.4860153288
 10
584.1163319207
 20
-164.9641710676
  0
LWPOLYLINE
  5
FD
330
1F
100
AcDbEntity
  8
0
  6
Continuous
 62
     7
370
    25
100
AcDbPolyline
 90
       92
 70
   128
 43
0.0
 10
390.3690738756
 20
-64.5459733134
 10
390.2764075153
 20
-61.5010937859
 10
389.998850032
 20
-58.5777147982
 10
389.5377241134
 20
-55.7897675824
 10
388.8952272345
 20
-53.1505379767
 10
388.0744211856
 20
-50.672603112
 10
387.0792174812
 20
-48.3677714764
 10
385.9143587203
 20
-46.2470266422
 10
384.5853959853
 20
-44.3204749244
 10
383.0986623887
 20
-42.5972972192
 10
381.4612428934
 20
-41.0857052532
 10
379.6809405488
 20
-39.7929024505
 10
377.7662393064
 20
-38.725049605
 10
375.7262635895
 20
-37.887235522
 10
373.5707348115
 20
-37.2834527671
 10
371.3099250485
 20
-36.9165786401
 10
368.9546080887
 20
-36.7883614632
 10
366.5160080899
 20
-36.8994122497
 10
364.0057460918
 20
-37.249201792
 10
361.4357846359
 20
-37.8360631837
 10
358.8183707588
 20
-38.657199763
 10
356.1659776298
 20
-39.7086984401
 10
353.4912451098
 20
-40.985548345
 10
350.8069195175
 20
-42.4816647064
 10
348.1257928868
 20
-44.1899178486
 10
345.460642007
 20
-46.1021671673
 10
342.8241675357
 20
-48.2092999238
 10
340.2289334745
 20
-50.5012746708
 10
337.6873072955
 20
-52.9671691049
 10
335.2114010049
 20
-55.5952321163
 10
332.8130134237
 20
-58.3729397878
 10
330.503573961
 20
-61.2870550774
 10
328.2940881475
 20
-64.3236908986
 10
326.1950851892
 20
-67.468376299
 10
324.2165677913
 20
-70.7061254205
 10
322.36796449
 20
-74.0215089141
 10
320.6580847221
 20
-77.3987274676
 10
319.0950768431
 20
-80.8216870966
 10
317.6863892976
 20
-84.2740758397
 10
316.4387351231
 20
-87.7394414923
 10
315.3580599599
 20
-91.201270009
 10
314.4495137174
 20
-94.6430642004
 10
313.7174260321
 20
-98.0484223497
 10
313.1652856353
 20
-101.4011163746
 10
312.7957237274
 20
-104.6851691613
 10
312.6105014392
 20
-107.8849307026
 10
312.6105014392
 20
-110.9851526778
 10
312.7957237274
 20
-113.9710611171
 10
313.1652856353
 20
-116.8284268072
 10
313.7174260321
 20
-119.5436330993
 10
314.4495137174
 20
-122.1037407989
 10
315.3580599599
 20
-124.4965498269
 10
316.4387351231
 20
-126.7106573587
 10
317.6863892976
 20
-128.7355121635
 10
319.0950768431
 20
-130.5614648862
 10
320.6580847221
 20
-132.1798140304
 10
322.36796449
 20
-133.5828474255
 10
324.2165677913
 20
-134.7638789784
 10
326.1950851892
 20
-135.717280536
 10
328.2940881475
 20
-136.4385087055
 10
330.503573961
 20
-136.9241265065
 10
332.8130134237
 20
-137.1718197488
 10
335.2114010049
 20
-137.1804080614
 10
337.6873072955
 20
-136.9498505171
 10
340.2289334745
 20
-136.4812458275
 10
342.8241675357
 20
-135.7768271075
 10
345.460642007
 20
-134.839951233
 10
348.1257928868
 20
-133.6750828441
 10
350.8069195175
 20
-132.2877730693
 10
353.4912451098
 20
-130.6846330714
 10
356.1659776298
 20
-128.8733025426
 10
358.8183707588
 20
-126.8624132976
 10
361.4357846359
 20
-124.6615481396
 10
364.0057460918
 20
-122.2811951932
 10
366.5160080899
 20
-119.7326979243
 10
368.9546080887
 20
-117.0282010829
 10
371.3099250485
 20
-114.180592828
 10
373.5707348115
 20
-111.2034433099
 10
375.7262635895
 20
-108.1109400018
 10
377.7662393064
 20
-104.9178200902
 10
379.6809405488
 20
-101.6393002456
 10
381.4612428934
 20
-98.2910041082
 10
383.0986623887
 20
-94.8888878338
 10
384.5853959853
 20
-91.4491640558
 10
385.9143587203
 20
-87.9882246245
 10
387.0792174812
 20
-84.5225624923
 10
388.0744211856
 20
-81.0686931176
 10
388.8952272345
 20
-77.6430757608
 10
389.5377241134
 20
-74.2620350486
 10
389.998850032
 20
-70.9416831798
 10
390.2764075153
 20
-67.697843143
 10
390.3690738756
 20
-64.5459733134
  0
LWPOLYLINE
  5
FE
330
1F
100
AcDbEntity
  8
0
  6
Continuous
 62
     7
370
    25
100
AcDbPolyline
 90
       63
 70
   128
 43
0.0
 10
566.9336371378
 20
-89.7321635631
 10
566.8403991769
 20
-87.555311195
 10
566.5616420419
 20
-85.2931460197
 10
566.1002261581
 20
-82.9688809131
 10
565.460886277
 20
-80.6063659805
 10
564.6501828909
 20
-78.2298438219
 10
563.6764349136
 20
-75.8637007708
 10
562.5496343169
 20
-73.5322166567
 10
561.2813436
 20
-71.2593156616
 10
559.8845771417
 20
-69.0683208255
 10
558.3736676561
 20
-66.9817147203
 10
556.7641191191
 20
-65.0209087483
 10
555.0724476767
 20
-63.206023432
 10
553.3160121671
 20
-61.5556819509
 10
551.5128359955
 20
-60.0868190417
 10
549.6814221896
 20
-58.8145072256
 10
547.8405635331
 20
-57.7518021436
 10
546.0091497272
 20
-56.9096085878
 10
544.2059735556
 20
-56.2965686039
 10
542.449538046
 20
-55.9189728115
 10
540.7578666036
 20
-55.7806958546
 10
539.1483180666
 20
-55.8831566418
 10
537.637408581
 20
-56.2253037867
 10
536.2406421227
 20
-56.8036263968
 10
534.9723514057
 20
-57.6121900993
 10
533.8455508091
 20
-58.6426979366
 10
532.8718028318
 20
-59.8845755038
 10
532.0610994457
 20
-61.3250794564
 10
531.4217595645
 20
-62.9494282747
 10
530.9603436808
 20
-64.7409539416
 10
530.6815865457
 20
-66.6812729794
 10
530.5883485849
 20
-68.7504750893
 10
530.6815865457
 20
-70.9273274573
 10
530.9603436808
 20
-73.1894926326
 10
531.4217595645
 20
-75.5137577392
 10
532.0610994457
 20
-77.8762726719
 10
532.8718028318
 20
-80.2527948304
 10
533.8455508091
 20
-82.6189378816
 10
534.9723514057
 20
-84.9504219957
 10
536.2406421227
 20
-87.2233229907
 10
537.637408581
 20
-89.4143178268
 10
539.1483180666
 20
-91.500923932
 10
540.7578666036
 20
-93.4617299041
 10
542.449538046
 20
-95.2766152203
 10
544.2059735556
 20
-96.9269567015
 10
546.0091497272
 20
-98.3958196106
 10
547.8405635331
 20
-99.6681314267
 10
549.6814221896
 20
-100.7308365087
 10
551.5128359955
 20
-101.5730300645
 10
553.3160121671
 20
-102.1860700485
 10
555.0724476767
 20
-102.5636658408
 10
556.7641191191
 20
-102.7019427978
 10
558.3736676561
 20
-102.5994820106
 10
559.8845771417
 20
-102.2573348656
 10
561.2813436
 20
-101.6790122556
 10
562.5496343169
 20
-100.870448553
 10
563.6764349136
 20
-99.8399407157
 10
564.6501828909
 20
-98.5980631485
 10
565.460886277
 20
-97.1575591959
 10
566.1002261581
 20
-95.5332103777
 10
566.5616420419
 20
-93.7416847108
 10
566.8403991769
 20
-91.8013656729
 10
566.9336371378
 20
-89.7321635631
  0
LWPOLYLINE
  5
FF
330
1F
100
AcDbEntity
  8
0
  6
Continuous
 62
     7
370
    25
100
AcDbPolyline
 90
       70
 70
   128
 43
0.0
 10
571.0348564687
 20
-92.0997470874
 10
570.9425723444
 20
-89.707533768
 10
570.6664846666
 20
-87.2285940995
 10
570.2088811849
 20
-84.6834693568
 10
569.5735537458
 20
-82.0932492449
 10
568.7657668726
 20
-79.4793971436
 10
567.7922141417
 20
-76.8635722546
 10
566.6609627176
 20
-74.2674501266
 10
565.381386506
 20
-71.7125430452
 10
563.9640884782
 20
-69.2200217752
 10
562.4208128121
 20
-66.8105401328
 10
560.7643475759
 20
-64.5040638417
 10
559.0084187623
 20
-62.3197050908
 10
557.1675765503
 20
-60.2755641647
 10
555.2570747384
 20
-58.3885794589
 10
553.2927443462
 20
-56.674387123
 10
551.2908624339
 20
-55.1471914944
 10
549.2680172257
 20
-53.8196473972
 10
547.2409706538
 20
-52.7027552799
 10
545.2265194647
 20
-51.8057700621
 10
543.2413560353
 20
-51.1361244461
 10
541.301930055
 20
-50.6993673262
 10
539.4243122182
 20
-50.4991178095
 10
537.6240610577
 20
-50.5370352265
 10
535.9160940215
 20
-50.8128053816
 10
534.3145638625
 20
-51.3241431565
 10
532.8327413638
 20
-52.0668114452
 10
531.4829053735
 20
-53.0346562645
 10
530.2762410576
 20
-54.2196577474
 10
529.2227472167
 20
-55.6119965984
 10
528.3311534325
 20
-57.2001354592
 10
527.6088477319
 20
-58.9709145111
 10
527.0618153674
 20
-60.9096605213
 10
526.6945892216
 20
-63.0003084296
 10
526.5102122458
 20
-65.2255344691
 10
526.5102122458
 20
-67.566899716
 10
526.6945892216
 20
-70.0050028805
 10
527.0618153674
 20
-72.5196410719
 10
527.6088477319
 20
-75.0899772063
 10
528.3311534325
 20
-77.6947126688
 10
529.2227472167
 20
-80.3122638012
 10
530.2762410576
 20
-82.9209407504
 10
531.4829053735
 20
-85.4991271977
 10
532.8327413638
 20
-88.0254594781
 10
534.3145638625
 20
-90.4790036067
 10
535.9160940215
 20
-92.8394287443
 10
537.6240610577
 20
-95.0871756646
 10
539.4243122182
 20
-97.2036188289
 10
541.301930055
 20
-99.1712207226
 10
543.2413560353
 20
-100.9736771765
 10
545.2265194647
 20
-102.5960524691
 10
547.2409706538
 20
-104.0249030875
 10
549.2680172257
 20
-105.2483891256
 10
551.2908624339
 20
-106.2563723928
 10
553.2927443462
 20
-107.0405004222
 10
555.2570747384
 20
-107.5942756821
 10
557.1675765503
 20
-107.9131094162
 10
559.0084187623
 20
-107.9943596678
 10
560.7643475759
 20
-107.8373531718
 10
562.4208128121
 20
-107.4433909333
 10
563.9640884782
 20
-106.8157374477
 10
565.381386506
 20
-105.9595936493
 10
566.6609627176
 20
-104.8820538153
 10
567.7922141417
 20
-103.5920467801
 10
568.7657668726
 20
-102.1002619482
 10
569.5735537458
 20
-100.4190607187
 10
570.2088811849
 20
-98.5623740543
 10
570.6664846666
 20
-96.5455870456
 10
570.9425723444
 20
-94.3854114248
 10
571.0348564687
 20
-92.0997470874
  0
LWPOLYLINE
  5
100
330
1F
100
AcDbEntity
  8
0
  6
Continuous
 62
     7
370
    25
100
AcDbPolyline
 90
       17
 70
   128
 43
0.0
 10
364.1350551598
 20
-13.5079925185
 10
364.0005521226
 20
-12.719629799
 10
363.6022118874
 20
-11.9615634167
 10
362.9553424459
 20
-11.2629254375
 10
362.0848026281
 20
-10.6505641271
 10
361.0240467909
 20
-10.1480121874
 10
359.8138391863
 20
-9.7745824076
 10
358.5006874139
 20
-9.5446254845
 10
357.1350551598
 20
-9.4669785339
 10
355.7694229057
 20
-9.5446254845
 10
354.4562711332
 20
-9.7745824076
 10
353.2460635287
 20
-10.1480121874
 10
352.1853076915
 20
-10.6505641271
 10
351.3147678737
 20
-11.2629254375
 10
350.6678984322
 20
-11.9615634167
 10
350.269558197
 20
-12.719629799
 10
350.1350551598
 20
-13.5079925185
  0
ENDSEC
  0
SECTION
  2
OBJECTS
  0
DICTIONARY
  5
C
330
0
100
AcDbDictionary
281
     1
  3
ACAD_GROUP
350
D
  3
ACAD_LAYOUT
350
1A
  3
ACAD_MLINESTYLE
350
17
  3
ACAD_PLOTSETTINGS
350
19
  3
ACAD_PLOTSTYLENAME
350
E
  3
ACAD_SCALELIST
350
47
  3
DWGPROPS
350
101
  0
DICTIONARY
  5
D
102
{ACAD_REACTORS
330
C
102
}
330
C
100
AcDbDictionary
281
     1
  0
DICTIONARY
  5
1A
102
{ACAD_REACTORS
330
C
102
}
330
C
100
AcDbDictionary
281
     1
  3
Layout1
350
1E
  3
Layout2
350
26
  3
Model
350
22
  0
DICTIONARY
  5
17
102
{ACAD_REACTORS
330
C
102
}
330
C
100
AcDbDictionary
281
     1
  3
Standard
350
18
  0
DICTIONARY
  5
19
102
{ACAD_REACTORS
330
C
102
}
330
C
100
AcDbDictionary
281
     1
  0
ACDBDICTIONARYWDFLT
  5
E
102
{ACAD_REACTORS
330
C
102
}
330
C
100
AcDbDictionary
281
     1
  3
Normal
350
F
100
AcDbDictionaryWithDefault
340
F
  0
DICTIONARY
  5
47
102
{ACAD_REACTORS
330
C
102
}
330
C
100
AcDbDictionary
281
     1
  3
A0
350
48
  3
A1
350
49
  3
A2
350
4A
  3
A3
350
4B
  3
A4
350
4C
  3
A5
350
4D
  3
A6
350
4E
  3
A7
350
4F
  3
A8
350
50
  3
A9
350
51
  3
B0
350
52
  3
B1
350
53
  3
B2
350
54
  3
B3
350
55
  3
B4
350
56
  3
B5
350
57
  3
B6
350
58
  3
B7
350
59
  3
B8
350
5A
  3
B9
350
5B
  3
C0
350
5C
  3
C1
350
5D
  3
C2
350
5E
  3
C3
350
5F
  3
C4
350
60
  3
C5
350
61
  3
C6
350
62
  3
C7
350
63
  3
C8
350
64
  3
C9
350
65
  3
D0
350
66
  3
D1
350
67
  3
D2
350
68
  0
XRECORD
  5
101
102
{ACAD_REACTORS
330
C
102
}
330
C
100
AcDbXrecord
280
     1
  1
DWGPROPS COOKIE
  2

  3

  4

  6

  7

  8
b.kav
  9

300
=
301
=
302
=
303
=
304
=
305
=
306
=
307
=
308
=
309
=
 40
0.0
 41
2459741.48111853
 42
2459741.481118704
  1

 90
        0
  0
LAYOUT
  5
1E
102
{ACAD_REACTORS
330
1A
102
}
330
1A
100
AcDbPlotSettings
  1

  2
none_device
  4

  6

 40
0.0
 41
0.0
 42
0.0
 43
0.0
 44
0.0
 45
0.0
 46
0.0
 47
0.0
 48
0.0
 49
0.0
140
0.0
141
0.0
142
1.0
143
1.0
 70
   688
 72
     1
 73
     0
 74
     5
  7

 75
    16
147
1.0
148
0.0
149
0.0
100
AcDbLayout
  1
Layout1
 70
     1
 71
     1
 10
0.0
 20
0.0
 11
420.0
 21
297.0
 12
0.0
 22
0.0
 32
0.0
 14
1.0000000000E+20
 24
1.0000000000E+20
 34
1.0000000000E+20
 15
-1.0000000000E+20
 25
-1.0000000000E+20
 35
-1.0000000000E+20
146
0.0
 13
0.0
 23
0.0
 33
0.0
 16
1.0
 26
0.0
 36
0.0
 17
0.0
 27
1.0
 37
0.0
 76
     0
330
1B
  0
LAYOUT
  5
26
102
{ACAD_REACTORS
330
1A
102
}
330
1A
100
AcDbPlotSettings
  1

  2
none_device
  4

  6

 40
0.0
 41
0.0
 42
0.0
 43
0.0
 44
0.0
 45
0.0
 46
0.0
 47
0.0
 48
0.0
 49
0.0
140
0.0
141
0.0
142
1.0
143
1.0
 70
   688
 72
     1
 73
     0
 74
     5
  7

 75
    16
147
1.0
148
0.0
149
0.0
100
AcDbLayout
  1
Layout2
 70
     1
 71
     2
 10
0.0
 20
0.0
 11
0.0
 21
0.0
 12
0.0
 22
0.0
 32
0.0
 14
0.0
 24
0.0
 34
0.0
 15
0.0
 25
0.0
 35
0.0
146
0.0
 13
0.0
 23
0.0
 33
0.0
 16
1.0
 26
0.0
 36
0.0
 17
0.0
 27
1.0
 37
0.0
 76
     0
330
23
  0
LAYOUT
  5
22
102
{ACAD_REACTORS
330
1A
102
}
330
1A
100
AcDbPlotSettings
  1

  2
none_device
  4
Letter_(8.50_x_11.00_Inches)
  6

 40
6.35
 41
6.35
 42
6.35000508
 43
6.35000508
 44
215.9
 45
279.4
 46
0.0
 47
0.0
 48
0.0
 49
0.0
140
0.0
141
0.0
142
1.0
143
1.0
 70
  1712
 72
     1
 73
     0
 74
     0
  7

 75
     0
147
1.0
148
0.0
149
0.0
100
AcDbLayout
  1
Model
 70
     1
 71
     0
 10
0.0
 20
0.0
 11
279.4
 21
215.9
 12
0.0
 22
0.0
 32
0.0
 14
0.0
 24
0.0
 34
0.0
 15
279.4
 25
215.9
 35
0.0
146
0.0
 13
0.0
 23
0.0
 33
0.0
 16
1.0
 26
0.0
 36
0.0
 17
0.0
 27
1.0
 37
0.0
 76
     0
330
1F
331
29
  0
MLINESTYLE
  5
18
102
{ACAD_REACTORS
330
17
102
}
330
17
100
AcDbMlineStyle
  2
Standard
 70
     0
  3

 62
   256
 51
90.0
 52
90.0
 71
     2
 49
0.5
 62
   256
  6
BYLAYER
 49
-0.5
 62
   256
  6
BYLAYER
  0
ACDBPLACEHOLDER
  5
F
102
{ACAD_REACTORS
330
E
102
}
330
E
  0
SCALE
  5
48
102
{ACAD_REACTORS
330
47
102
}
330
47
100
AcDbScale
 70
     0
300
1:1
140
1.0
141
1.0
290
     1
  0
SCALE
  5
49
102
{ACAD_REACTORS
330
47
102
}
330
47
100
AcDbScale
 70
     0
300
1:2
140
1.0
141
2.0
290
     0
  0
SCALE
  5
4A
102
{ACAD_REACTORS
330
47
102
}
330
47
100
AcDbScale
 70
     0
300
1:4
140
1.0
141
4.0
290
     0
  0
SCALE
  5
4B
102
{ACAD_REACTORS
330
47
102
}
330
47
100
AcDbScale
 70
     0
300
1:5
140
1.0
141
5.0
290
     0
  0
SCALE
  5
4C
102
{ACAD_REACTORS
330
47
102
}
330
47
100
AcDbScale
 70
     0
300
1:8
140
1.0
141
8.0
290
     0
  0
SCALE
  5
4D
102
{ACAD_REACTORS
330
47
102
}
330
47
100
AcDbScale
 70
     0
300
1:10
140
1.0
141
10.0
290
     0
  0
SCALE
  5
4E
102
{ACAD_REACTORS
330
47
102
}
330
47
100
AcDbScale
 70
     0
300
1:16
140
1.0
141
16.0
290
     0
  0
SCALE
  5
4F
102
{ACAD_REACTORS
330
47
102
}
330
47
100
AcDbScale
 70
     0
300
1:20
140
1.0
141
20.0
290
     0
  0
SCALE
  5
50
102
{ACAD_REACTORS
330
47
102
}
330
47
100
AcDbScale
 70
     0
300
1:30
140
1.0
141
30.0
290
     0
  0
SCALE
  5
51
102
{ACAD_REACTORS
330
47
102
}
330
47
100
AcDbScale
 70
     0
300
1:40
140
1.0
141
40.0
290
     0
  0
SCALE
  5
52
102
{ACAD_REACTORS
330
47
102
}
330
47
100
AcDbScale
 70
     0
300
1:50
140
1.0
141
50.0
290
     0
  0
SCALE
  5
53
102
{ACAD_REACTORS
330
47
102
}
330
47
100
AcDbScale
 70
     0
300
1:100
140
1.0
141
100.0
290
     0
  0
SCALE
  5
54
102
{ACAD_REACTORS
330
47
102
}
330
47
100
AcDbScale
 70
     0
300
2:1
140
2.0
141
1.0
290
     0
  0
SCALE
  5
55
102
{ACAD_REACTORS
330
47
102
}
330
47
100
AcDbScale
 70
     0
300
4:1
140
4.0
141
1.0
290
     0
  0
SCALE
  5
56
102
{ACAD_REACTORS
330
47
102
}
330
47
100
AcDbScale
 70
     0
300
8:1
140
8.0
141
1.0
290
     0
  0
SCALE
  5
57
102
{ACAD_REACTORS
330
47
102
}
330
47
100
AcDbScale
 70
     0
300
10:1
140
10.0
141
1.0
290
     0
  0
SCALE
  5
58
102
{ACAD_REACTORS
330
47
102
}
330
47
100
AcDbScale
 70
     0
300
100:1
140
100.0
141
1.0
290
     0
  0
SCALE
  5
59
102
{ACAD_REACTORS
330
47
102
}
330
47
100
AcDbScale
 70
     0
300
1/128" = 1'-0"
140
0.0078125
141
12.0
290
     0
  0
SCALE
  5
5A
102
{ACAD_REACTORS
330
47
102
}
330
47
100
AcDbScale
 70
     0
300
1/64" = 1'-0"
140
0.015625
141
12.0
290
     0
  0
SCALE
  5
5B
102
{ACAD_REACTORS
330
47
102
}
330
47
100
AcDbScale
 70
     0
300
1/32" = 1'-0"
140
0.03125
141
12.0
290
     0
  0
SCALE
  5
5C
102
{ACAD_REACTORS
330
47
102
}
330
47
100
AcDbScale
 70
     0
300
1/16" = 1'-0"
140
0.0625
141
12.0
290
     0
  0
SCALE
  5
5D
102
{ACAD_REACTORS
330
47
102
}
330
47
100
AcDbScale
 70
     0
300
3/32" = 1'-0"
140
0.09375
141
12.0
290
     0
  0
SCALE
  5
5E
102
{ACAD_REACTORS
330
47
102
}
330
47
100
AcDbScale
 70
     0
300
1/8" = 1'-0"
140
0.125
141
12.0
290
     0
  0
SCALE
  5
5F
102
{ACAD_REACTORS
330
47
102
}
330
47
100
AcDbScale
 70
     0
300
3/16" = 1'-0"
140
0.1875
141
12.0
290
     0
  0
SCALE
  5
60
102
{ACAD_REACTORS
330
47
102
}
330
47
100
AcDbScale
 70
     0
300
1/4" = 1'-0"
140
0.25
141
12.0
290
     0
  0
SCALE
  5
61
102
{ACAD_REACTORS
330
47
102
}
330
47
100
AcDbScale
 70
     0
300
3/8" = 1'-0"
140
0.375
141
12.0
290
     0
  0
SCALE
  5
62
102
{ACAD_REACTORS
330
47
102
}
330
47
100
AcDbScale
 70
     0
300
1/2" = 1'-0"
140
0.5
141
12.0
290
     0
  0
SCALE
  5
63
102
{ACAD_REACTORS
330
47
102
}
330
47
100
AcDbScale
 70
     0
300
3/4" = 1'-0"
140
0.75
141
12.0
290
     0
  0
SCALE
  5
64
102
{ACAD_REACTORS
330
47
102
}
330
47
100
AcDbScale
 70
     0
300
1" = 1'-0"
140
1.0
141
12.0
290
     0
  0
SCALE
  5
65
102
{ACAD_REACTORS
330
47
102
}
330
47
100
AcDbScale
 70
     0
300
1-1/2" = 1'-0"
140
1.5
141
12.0
290
     0
  0
SCALE
  5
66
102
{ACAD_REACTORS
330
47
102
}
330
47
100
AcDbScale
 70
     0
300
3" = 1'-0"
140
3.0
141
12.0
290
     0
  0
SCALE
  5
67
102
{ACAD_REACTORS
330
47
102
}
330
47
100
AcDbScale
 70
     0
300
6" = 1'-0"
140
6.0
141
12.0
290
     0
  0
SCALE
  5
68
102
{ACAD_REACTORS
330
47
102
}
330
47
100
AcDbScale
 70
     0
300
1'-0" = 1'-0"
140
12.0
141
12.0
290
     0
  0
ENDSEC
  0
EOF
